ISO-10303-21;
HEADER;
/* Generated by software containing ST-Developer
 * from STEP Tools, Inc. (www.steptools.com) 
 */
/* OPTION: using custom schema-name function */

FILE_DESCRIPTION(
/* description */ (''),
/* implementation_level */ '2;1');

FILE_NAME(
/* name */ 'VisTestM8.stp',
/* time_stamp */ '2025-06-26T12:46:14+02:00',
/* author */ (''),
/* organization */ (''),
/* preprocessor_version */ 'ST-DEVELOPER v18.1',
/* originating_system */ 'SIEMENS PLM Software NX 1953',
/* authorisation */ '');

FILE_SCHEMA (('AUTOMOTIVE_DESIGN { 1 0 10303 214 3 1 1 1 }'));
ENDSEC;

DATA;
#10=SHAPE_REPRESENTATION_RELATIONSHIP('None',
'relationship between visserie-None and visserie-None',#22,#11);
#11=ADVANCED_BREP_SHAPE_REPRESENTATION('visserie-None',(#39,#40),#412);
#12=SHAPE_DEFINITION_REPRESENTATION(#13,#22);
#13=PRODUCT_DEFINITION_SHAPE('','',#14);
#14=PRODUCT_DEFINITION(' ','',#16,#15);
#15=PRODUCT_DEFINITION_CONTEXT('part definition',#21,'design');
#16=PRODUCT_DEFINITION_FORMATION_WITH_SPECIFIED_SOURCE(' ',' ',#18,
 .NOT_KNOWN.);
#17=PRODUCT_RELATED_PRODUCT_CATEGORY('part','',(#18));
#18=PRODUCT('visserie','visserie',' ',(#19));
#19=PRODUCT_CONTEXT(' ',#21,'mechanical');
#20=APPLICATION_PROTOCOL_DEFINITION('international standard',
'automotive_design',2010,#21);
#21=APPLICATION_CONTEXT(
'core data for automotive mechanical design processes');
#22=SHAPE_REPRESENTATION('visserie-None',(#267),#412);
#23=PRESENTATION_LAYER_ASSIGNMENT('1','Layer 1',(#39,#40));
#24=STYLED_ITEM('',(#26),#39);
#25=STYLED_ITEM('',(#27),#40);
#26=PRESENTATION_STYLE_ASSIGNMENT((#28));
#27=PRESENTATION_STYLE_ASSIGNMENT((#29));
#28=SURFACE_STYLE_USAGE(.BOTH.,#30);
#29=SURFACE_STYLE_USAGE(.BOTH.,#31);
#30=SURFACE_SIDE_STYLE('',(#32));
#31=SURFACE_SIDE_STYLE('',(#33));
#32=SURFACE_STYLE_FILL_AREA(#34);
#33=SURFACE_STYLE_FILL_AREA(#35);
#34=FILL_AREA_STYLE('',(#36));
#35=FILL_AREA_STYLE('',(#37));
#36=FILL_AREA_STYLE_COLOUR('',#38);
#37=FILL_AREA_STYLE_COLOUR('',#38);
#38=COLOUR_RGB('medium steel',0.611764705882353,0.658823529411765,0.670588235294118);
#39=MANIFOLD_SOLID_BREP('SOLID0',#41);
#40=MANIFOLD_SOLID_BREP('SOLID1',#42);
#41=CLOSED_SHELL('SOLID0',(#61,#62,#63,#64,#65,#66,#67));
#42=CLOSED_SHELL('SOLID1',(#68,#69,#70,#71,#72,#73,#74));
#43=CYLINDRICAL_SURFACE('',#274,4.);
#44=CYLINDRICAL_SURFACE('',#283,4.);
#45=FACE_BOUND('',#99,.T.);
#46=FACE_BOUND('',#100,.T.);
#47=FACE_BOUND('',#101,.T.);
#48=FACE_BOUND('',#102,.T.);
#49=FACE_BOUND('',#103,.T.);
#50=FACE_BOUND('',#104,.T.);
#51=FACE_BOUND('',#109,.T.);
#52=FACE_BOUND('',#110,.T.);
#53=FACE_BOUND('',#111,.T.);
#54=FACE_BOUND('',#112,.T.);
#55=FACE_BOUND('',#113,.T.);
#56=FACE_BOUND('',#114,.T.);
#57=CIRCLE('',#272,4.);
#58=CIRCLE('',#273,4.);
#59=CIRCLE('',#281,4.);
#60=CIRCLE('',#282,4.);
#61=ADVANCED_FACE('Face0',(#87),#75,.F.);
#62=ADVANCED_FACE('Face1',(#88),#76,.F.);
#63=ADVANCED_FACE('Face2',(#89),#77,.F.);
#64=ADVANCED_FACE('Face3',(#90),#78,.F.);
#65=ADVANCED_FACE('Face4',(#45,#46),#43,.F.);
#66=ADVANCED_FACE('Face5',(#47,#48),#79,.T.);
#67=ADVANCED_FACE('Face6',(#49,#50),#80,.F.);
#68=ADVANCED_FACE('Face7',(#91),#81,.T.);
#69=ADVANCED_FACE('Face8',(#92),#82,.T.);
#70=ADVANCED_FACE('Face9',(#93),#83,.T.);
#71=ADVANCED_FACE('Face10',(#94),#84,.T.);
#72=ADVANCED_FACE('Face11',(#51,#52),#44,.F.);
#73=ADVANCED_FACE('Face12',(#53,#54),#85,.F.);
#74=ADVANCED_FACE('Face13',(#55,#56),#86,.T.);
#75=PLANE('',#268);
#76=PLANE('',#269);
#77=PLANE('',#270);
#78=PLANE('',#271);
#79=PLANE('',#275);
#80=PLANE('',#276);
#81=PLANE('',#277);
#82=PLANE('',#278);
#83=PLANE('',#279);
#84=PLANE('',#280);
#85=PLANE('',#284);
#86=PLANE('',#285);
#87=FACE_OUTER_BOUND('',#95,.T.);
#88=FACE_OUTER_BOUND('',#96,.T.);
#89=FACE_OUTER_BOUND('',#97,.T.);
#90=FACE_OUTER_BOUND('',#98,.T.);
#91=FACE_OUTER_BOUND('',#105,.T.);
#92=FACE_OUTER_BOUND('',#106,.T.);
#93=FACE_OUTER_BOUND('',#107,.T.);
#94=FACE_OUTER_BOUND('',#108,.T.);
#95=EDGE_LOOP('',(#115,#116,#117,#118));
#96=EDGE_LOOP('',(#119,#120,#121,#122));
#97=EDGE_LOOP('',(#123,#124,#125,#126));
#98=EDGE_LOOP('',(#127,#128,#129,#130));
#99=EDGE_LOOP('',(#131));
#100=EDGE_LOOP('',(#132));
#101=EDGE_LOOP('',(#133,#134,#135,#136));
#102=EDGE_LOOP('',(#137));
#103=EDGE_LOOP('',(#138,#139,#140,#141));
#104=EDGE_LOOP('',(#142));
#105=EDGE_LOOP('',(#143,#144,#145,#146));
#106=EDGE_LOOP('',(#147,#148,#149,#150));
#107=EDGE_LOOP('',(#151,#152,#153,#154));
#108=EDGE_LOOP('',(#155,#156,#157,#158));
#109=EDGE_LOOP('',(#159));
#110=EDGE_LOOP('',(#160));
#111=EDGE_LOOP('',(#161,#162,#163,#164));
#112=EDGE_LOOP('',(#165));
#113=EDGE_LOOP('',(#166,#167,#168,#169));
#114=EDGE_LOOP('',(#170));
#115=ORIENTED_EDGE('',*,*,#191,.T.);
#116=ORIENTED_EDGE('',*,*,#192,.F.);
#117=ORIENTED_EDGE('',*,*,#193,.F.);
#118=ORIENTED_EDGE('',*,*,#194,.T.);
#119=ORIENTED_EDGE('',*,*,#195,.T.);
#120=ORIENTED_EDGE('',*,*,#196,.F.);
#121=ORIENTED_EDGE('',*,*,#197,.F.);
#122=ORIENTED_EDGE('',*,*,#192,.T.);
#123=ORIENTED_EDGE('',*,*,#198,.T.);
#124=ORIENTED_EDGE('',*,*,#199,.F.);
#125=ORIENTED_EDGE('',*,*,#200,.F.);
#126=ORIENTED_EDGE('',*,*,#196,.T.);
#127=ORIENTED_EDGE('',*,*,#201,.T.);
#128=ORIENTED_EDGE('',*,*,#194,.F.);
#129=ORIENTED_EDGE('',*,*,#202,.F.);
#130=ORIENTED_EDGE('',*,*,#199,.T.);
#131=ORIENTED_EDGE('',*,*,#203,.T.);
#132=ORIENTED_EDGE('',*,*,#204,.F.);
#133=ORIENTED_EDGE('',*,*,#193,.T.);
#134=ORIENTED_EDGE('',*,*,#197,.T.);
#135=ORIENTED_EDGE('',*,*,#200,.T.);
#136=ORIENTED_EDGE('',*,*,#202,.T.);
#137=ORIENTED_EDGE('',*,*,#203,.F.);
#138=ORIENTED_EDGE('',*,*,#191,.F.);
#139=ORIENTED_EDGE('',*,*,#201,.F.);
#140=ORIENTED_EDGE('',*,*,#198,.F.);
#141=ORIENTED_EDGE('',*,*,#195,.F.);
#142=ORIENTED_EDGE('',*,*,#204,.T.);
#143=ORIENTED_EDGE('',*,*,#205,.F.);
#144=ORIENTED_EDGE('',*,*,#206,.F.);
#145=ORIENTED_EDGE('',*,*,#207,.T.);
#146=ORIENTED_EDGE('',*,*,#208,.T.);
#147=ORIENTED_EDGE('',*,*,#209,.F.);
#148=ORIENTED_EDGE('',*,*,#208,.F.);
#149=ORIENTED_EDGE('',*,*,#210,.T.);
#150=ORIENTED_EDGE('',*,*,#211,.T.);
#151=ORIENTED_EDGE('',*,*,#212,.F.);
#152=ORIENTED_EDGE('',*,*,#211,.F.);
#153=ORIENTED_EDGE('',*,*,#213,.T.);
#154=ORIENTED_EDGE('',*,*,#214,.T.);
#155=ORIENTED_EDGE('',*,*,#215,.F.);
#156=ORIENTED_EDGE('',*,*,#214,.F.);
#157=ORIENTED_EDGE('',*,*,#216,.T.);
#158=ORIENTED_EDGE('',*,*,#206,.T.);
#159=ORIENTED_EDGE('',*,*,#217,.F.);
#160=ORIENTED_EDGE('',*,*,#218,.T.);
#161=ORIENTED_EDGE('',*,*,#207,.F.);
#162=ORIENTED_EDGE('',*,*,#216,.F.);
#163=ORIENTED_EDGE('',*,*,#213,.F.);
#164=ORIENTED_EDGE('',*,*,#210,.F.);
#165=ORIENTED_EDGE('',*,*,#217,.T.);
#166=ORIENTED_EDGE('',*,*,#205,.T.);
#167=ORIENTED_EDGE('',*,*,#209,.T.);
#168=ORIENTED_EDGE('',*,*,#212,.T.);
#169=ORIENTED_EDGE('',*,*,#215,.T.);
#170=ORIENTED_EDGE('',*,*,#218,.F.);
#171=VERTEX_POINT('',#350);
#172=VERTEX_POINT('',#351);
#173=VERTEX_POINT('',#353);
#174=VERTEX_POINT('',#355);
#175=VERTEX_POINT('',#359);
#176=VERTEX_POINT('',#361);
#177=VERTEX_POINT('',#365);
#178=VERTEX_POINT('',#367);
#179=VERTEX_POINT('',#374);
#180=VERTEX_POINT('',#376);
#181=VERTEX_POINT('',#381);
#182=VERTEX_POINT('',#382);
#183=VERTEX_POINT('',#384);
#184=VERTEX_POINT('',#386);
#185=VERTEX_POINT('',#390);
#186=VERTEX_POINT('',#392);
#187=VERTEX_POINT('',#396);
#188=VERTEX_POINT('',#398);
#189=VERTEX_POINT('',#405);
#190=VERTEX_POINT('',#407);
#191=EDGE_CURVE('',#171,#172,#219,.T.);
#192=EDGE_CURVE('',#173,#172,#220,.T.);
#193=EDGE_CURVE('',#174,#173,#221,.T.);
#194=EDGE_CURVE('',#174,#171,#222,.T.);
#195=EDGE_CURVE('',#172,#175,#223,.T.);
#196=EDGE_CURVE('',#176,#175,#224,.T.);
#197=EDGE_CURVE('',#173,#176,#225,.T.);
#198=EDGE_CURVE('',#175,#177,#226,.T.);
#199=EDGE_CURVE('',#178,#177,#227,.T.);
#200=EDGE_CURVE('',#176,#178,#228,.T.);
#201=EDGE_CURVE('',#177,#171,#229,.T.);
#202=EDGE_CURVE('',#178,#174,#230,.T.);
#203=EDGE_CURVE('',#179,#179,#57,.T.);
#204=EDGE_CURVE('',#180,#180,#58,.T.);
#205=EDGE_CURVE('',#181,#182,#231,.T.);
#206=EDGE_CURVE('',#183,#181,#232,.T.);
#207=EDGE_CURVE('',#183,#184,#233,.T.);
#208=EDGE_CURVE('',#184,#182,#234,.T.);
#209=EDGE_CURVE('',#182,#185,#235,.T.);
#210=EDGE_CURVE('',#184,#186,#236,.T.);
#211=EDGE_CURVE('',#186,#185,#237,.T.);
#212=EDGE_CURVE('',#185,#187,#238,.T.);
#213=EDGE_CURVE('',#186,#188,#239,.T.);
#214=EDGE_CURVE('',#188,#187,#240,.T.);
#215=EDGE_CURVE('',#187,#181,#241,.T.);
#216=EDGE_CURVE('',#188,#183,#242,.T.);
#217=EDGE_CURVE('',#189,#189,#59,.T.);
#218=EDGE_CURVE('',#190,#190,#60,.T.);
#219=LINE('',#349,#243);
#220=LINE('',#352,#244);
#221=LINE('',#354,#245);
#222=LINE('',#356,#246);
#223=LINE('',#358,#247);
#224=LINE('',#360,#248);
#225=LINE('',#362,#249);
#226=LINE('',#364,#250);
#227=LINE('',#366,#251);
#228=LINE('',#368,#252);
#229=LINE('',#370,#253);
#230=LINE('',#371,#254);
#231=LINE('',#380,#255);
#232=LINE('',#383,#256);
#233=LINE('',#385,#257);
#234=LINE('',#387,#258);
#235=LINE('',#389,#259);
#236=LINE('',#391,#260);
#237=LINE('',#393,#261);
#238=LINE('',#395,#262);
#239=LINE('',#397,#263);
#240=LINE('',#399,#264);
#241=LINE('',#401,#265);
#242=LINE('',#402,#266);
#243=VECTOR('',#288,1.);
#244=VECTOR('',#289,1.);
#245=VECTOR('',#290,1.);
#246=VECTOR('',#291,1.);
#247=VECTOR('',#294,1.);
#248=VECTOR('',#295,1.);
#249=VECTOR('',#296,1.);
#250=VECTOR('',#299,1.);
#251=VECTOR('',#300,1.);
#252=VECTOR('',#301,1.);
#253=VECTOR('',#304,1.);
#254=VECTOR('',#305,1.);
#255=VECTOR('',#318,1.);
#256=VECTOR('',#319,1.);
#257=VECTOR('',#320,1.);
#258=VECTOR('',#321,1.);
#259=VECTOR('',#324,1.);
#260=VECTOR('',#325,1.);
#261=VECTOR('',#326,1.);
#262=VECTOR('',#329,1.);
#263=VECTOR('',#330,1.);
#264=VECTOR('',#331,1.);
#265=VECTOR('',#334,1.);
#266=VECTOR('',#335,1.);
#267=AXIS2_PLACEMENT_3D('',#348,#286,#287);
#268=AXIS2_PLACEMENT_3D('',#357,#292,#293);
#269=AXIS2_PLACEMENT_3D('',#363,#297,#298);
#270=AXIS2_PLACEMENT_3D('',#369,#302,#303);
#271=AXIS2_PLACEMENT_3D('',#372,#306,#307);
#272=AXIS2_PLACEMENT_3D('',#373,#308,#309);
#273=AXIS2_PLACEMENT_3D('',#375,#310,#311);
#274=AXIS2_PLACEMENT_3D('',#377,#312,#313);
#275=AXIS2_PLACEMENT_3D('',#378,#314,#315);
#276=AXIS2_PLACEMENT_3D('',#379,#316,#317);
#277=AXIS2_PLACEMENT_3D('',#388,#322,#323);
#278=AXIS2_PLACEMENT_3D('',#394,#327,#328);
#279=AXIS2_PLACEMENT_3D('',#400,#332,#333);
#280=AXIS2_PLACEMENT_3D('',#403,#336,#337);
#281=AXIS2_PLACEMENT_3D('',#404,#338,#339);
#282=AXIS2_PLACEMENT_3D('',#406,#340,#341);
#283=AXIS2_PLACEMENT_3D('',#408,#342,#343);
#284=AXIS2_PLACEMENT_3D('',#409,#344,#345);
#285=AXIS2_PLACEMENT_3D('',#410,#346,#347);
#286=DIRECTION('',(0.,0.,1.));
#287=DIRECTION('',(1.,0.,0.));
#288=DIRECTION('',(1.73472347597681E-16,-1.,0.));
#289=DIRECTION('',(0.,0.,-1.));
#290=DIRECTION('',(1.73472347597681E-16,-1.,0.));
#291=DIRECTION('',(0.,0.,-1.));
#292=DIRECTION('',(1.,1.73472347597681E-16,0.));
#293=DIRECTION('',(-1.73472347597681E-16,1.,0.));
#294=DIRECTION('',(1.,-9.54097911787244E-16,0.));
#295=DIRECTION('',(0.,0.,-1.));
#296=DIRECTION('',(1.,-9.54097911787244E-16,0.));
#297=DIRECTION('',(9.54097911787244E-16,1.,0.));
#298=DIRECTION('',(-1.,9.54097911787244E-16,0.));
#299=DIRECTION('',(-1.73472347597681E-16,1.,0.));
#300=DIRECTION('',(0.,0.,-1.));
#301=DIRECTION('',(-1.73472347597681E-16,1.,0.));
#302=DIRECTION('',(-1.,-1.73472347597681E-16,0.));
#303=DIRECTION('',(1.73472347597681E-16,-1.,0.));
#304=DIRECTION('',(-1.,9.54097911787244E-16,0.));
#305=DIRECTION('',(-1.,9.54097911787244E-16,0.));
#306=DIRECTION('',(-9.54097911787244E-16,-1.,0.));
#307=DIRECTION('',(1.,-9.54097911787244E-16,0.));
#308=DIRECTION('',(0.,0.,1.));
#309=DIRECTION('',(1.,0.,0.));
#310=DIRECTION('',(0.,0.,1.));
#311=DIRECTION('',(1.,0.,0.));
#312=DIRECTION('',(0.,0.,-1.));
#313=DIRECTION('',(-1.,0.,0.));
#314=DIRECTION('',(0.,0.,1.));
#315=DIRECTION('',(1.,0.,0.));
#316=DIRECTION('',(0.,0.,1.));
#317=DIRECTION('',(1.,0.,0.));
#318=DIRECTION('',(1.73472347597681E-16,-1.,0.));
#319=DIRECTION('',(0.,0.,1.));
#320=DIRECTION('',(1.73472347597681E-16,-1.,0.));
#321=DIRECTION('',(0.,0.,1.));
#322=DIRECTION('',(-1.,-1.73472347597681E-16,0.));
#323=DIRECTION('',(1.73472347597681E-16,-1.,0.));
#324=DIRECTION('',(1.,-9.54097911787244E-16,0.));
#325=DIRECTION('',(1.,-9.54097911787244E-16,0.));
#326=DIRECTION('',(0.,0.,1.));
#327=DIRECTION('',(-9.54097911787244E-16,-1.,0.));
#328=DIRECTION('',(1.,-9.54097911787244E-16,0.));
#329=DIRECTION('',(-1.73472347597681E-16,1.,0.));
#330=DIRECTION('',(-1.73472347597681E-16,1.,0.));
#331=DIRECTION('',(0.,0.,1.));
#332=DIRECTION('',(1.,1.73472347597681E-16,0.));
#333=DIRECTION('',(-1.73472347597681E-16,1.,0.));
#334=DIRECTION('',(-1.,9.54097911787244E-16,0.));
#335=DIRECTION('',(-1.,9.54097911787244E-16,0.));
#336=DIRECTION('',(9.54097911787244E-16,1.,0.));
#337=DIRECTION('',(-1.,9.54097911787244E-16,0.));
#338=DIRECTION('',(0.,0.,1.));
#339=DIRECTION('',(1.,0.,0.));
#340=DIRECTION('',(0.,0.,1.));
#341=DIRECTION('',(1.,0.,0.));
#342=DIRECTION('',(0.,0.,1.));
#343=DIRECTION('',(1.,0.,0.));
#344=DIRECTION('',(0.,0.,1.));
#345=DIRECTION('',(1.,0.,0.));
#346=DIRECTION('',(0.,0.,1.));
#347=DIRECTION('',(1.,0.,0.));
#348=CARTESIAN_POINT('',(0.,0.,0.));
#349=CARTESIAN_POINT('',(-20.,20.,0.));
#350=CARTESIAN_POINT('',(-20.,20.,0.));
#351=CARTESIAN_POINT('',(-20.,-20.,0.));
#352=CARTESIAN_POINT('',(-20.,-20.,10.));
#353=CARTESIAN_POINT('',(-20.,-20.,10.));
#354=CARTESIAN_POINT('',(-20.,20.,10.));
#355=CARTESIAN_POINT('',(-20.,20.,10.));
#356=CARTESIAN_POINT('',(-20.,20.,10.));
#357=CARTESIAN_POINT('',(-20.,20.,10.));
#358=CARTESIAN_POINT('',(-20.,-20.,0.));
#359=CARTESIAN_POINT('',(20.,-20.,0.));
#360=CARTESIAN_POINT('',(20.,-20.,10.));
#361=CARTESIAN_POINT('',(20.,-20.,10.));
#362=CARTESIAN_POINT('',(-20.,-20.,10.));
#363=CARTESIAN_POINT('',(-20.,-20.,10.));
#364=CARTESIAN_POINT('',(20.,-20.,0.));
#365=CARTESIAN_POINT('',(20.,20.,0.));
#366=CARTESIAN_POINT('',(20.,20.,10.));
#367=CARTESIAN_POINT('',(20.,20.,10.));
#368=CARTESIAN_POINT('',(20.,-20.,10.));
#369=CARTESIAN_POINT('',(20.,-20.,10.));
#370=CARTESIAN_POINT('',(20.,20.,0.));
#371=CARTESIAN_POINT('',(20.,20.,10.));
#372=CARTESIAN_POINT('',(20.,20.,10.));
#373=CARTESIAN_POINT('',(0.,0.,10.));
#374=CARTESIAN_POINT('',(4.,0.,10.));
#375=CARTESIAN_POINT('',(0.,0.,0.));
#376=CARTESIAN_POINT('',(4.,0.,0.));
#377=CARTESIAN_POINT('',(0.,0.,10.));
#378=CARTESIAN_POINT('',(0.,0.,10.));
#379=CARTESIAN_POINT('',(0.,0.,0.));
#380=CARTESIAN_POINT('',(-20.,20.,0.));
#381=CARTESIAN_POINT('',(-20.,20.,0.));
#382=CARTESIAN_POINT('',(-20.,-20.,0.));
#383=CARTESIAN_POINT('',(-20.,20.,-10.));
#384=CARTESIAN_POINT('',(-20.,20.,-10.));
#385=CARTESIAN_POINT('',(-20.,20.,-10.));
#386=CARTESIAN_POINT('',(-20.,-20.,-10.));
#387=CARTESIAN_POINT('',(-20.,-20.,-10.));
#388=CARTESIAN_POINT('',(-20.,20.,-10.));
#389=CARTESIAN_POINT('',(-20.,-20.,0.));
#390=CARTESIAN_POINT('',(20.,-20.,0.));
#391=CARTESIAN_POINT('',(-20.,-20.,-10.));
#392=CARTESIAN_POINT('',(20.,-20.,-10.));
#393=CARTESIAN_POINT('',(20.,-20.,-10.));
#394=CARTESIAN_POINT('',(-20.,-20.,-10.));
#395=CARTESIAN_POINT('',(20.,-20.,0.));
#396=CARTESIAN_POINT('',(20.,20.,0.));
#397=CARTESIAN_POINT('',(20.,-20.,-10.));
#398=CARTESIAN_POINT('',(20.,20.,-10.));
#399=CARTESIAN_POINT('',(20.,20.,-10.));
#400=CARTESIAN_POINT('',(20.,-20.,-10.));
#401=CARTESIAN_POINT('',(20.,20.,0.));
#402=CARTESIAN_POINT('',(20.,20.,-10.));
#403=CARTESIAN_POINT('',(20.,20.,-10.));
#404=CARTESIAN_POINT('',(0.,0.,-10.));
#405=CARTESIAN_POINT('',(4.,0.,-10.));
#406=CARTESIAN_POINT('',(0.,0.,0.));
#407=CARTESIAN_POINT('',(4.,0.,0.));
#408=CARTESIAN_POINT('',(0.,0.,-10.));
#409=CARTESIAN_POINT('',(0.,0.,-10.));
#410=CARTESIAN_POINT('',(0.,0.,0.));
#411=MECHANICAL_DESIGN_GEOMETRIC_PRESENTATION_REPRESENTATION('',(#24,#25),
#412);
#412=(
GEOMETRIC_REPRESENTATION_CONTEXT(3)
GLOBAL_UNCERTAINTY_ASSIGNED_CONTEXT((#413))
GLOBAL_UNIT_ASSIGNED_CONTEXT((#419,#415,#414))
REPRESENTATION_CONTEXT('VisTestM8','TOP_LEVEL_ASSEMBLY_PART')
);
#413=UNCERTAINTY_MEASURE_WITH_UNIT(LENGTH_MEASURE(2.E-5),#419,
'DISTANCE_ACCURACY_VALUE','Maximum Tolerance applied to model');
#414=(
NAMED_UNIT(*)
SI_UNIT($,.STERADIAN.)
SOLID_ANGLE_UNIT()
);
#415=(
CONVERSION_BASED_UNIT('DEGREE',#417)
NAMED_UNIT(#416)
PLANE_ANGLE_UNIT()
);
#416=DIMENSIONAL_EXPONENTS(0.,0.,0.,0.,0.,0.,0.);
#417=PLANE_ANGLE_MEASURE_WITH_UNIT(PLANE_ANGLE_MEASURE(0.0174532925),#418);
#418=(
NAMED_UNIT(*)
PLANE_ANGLE_UNIT()
SI_UNIT($,.RADIAN.)
);
#419=(
LENGTH_UNIT()
NAMED_UNIT(*)
SI_UNIT(.MILLI.,.METRE.)
);
ENDSEC;
END-ISO-10303-21;
