ISO-10303-21;
HEADER;
/* Generated by software containing ST-Developer
 * from STEP Tools, Inc. (www.steptools.com) 
 */
/* OPTION: using custom schema-name function */

FILE_DESCRIPTION(
/* description */ (''),
/* implementation_level */ '2;1');

FILE_NAME(
/* name */ 'PoutreCoupe.stp',
/* time_stamp */ '2024-07-18T23:01:49+02:00',
/* author */ (''),
/* organization */ (''),
/* preprocessor_version */ 'ST-DEVELOPER v18.1',
/* originating_system */ 'SIEMENS PLM Software NX 1953',
/* authorisation */ '');

FILE_SCHEMA (('AUTOMOTIVE_DESIGN { 1 0 10303 214 3 1 1 1 }'));
ENDSEC;

DATA;
#10=SHAPE_REPRESENTATION_RELATIONSHIP('None',
'relationship between model1-None and model1-None',#22,#11);
#11=ADVANCED_BREP_SHAPE_REPRESENTATION('model1-None',(#39,#40),#344);
#12=SHAPE_DEFINITION_REPRESENTATION(#13,#22);
#13=PRODUCT_DEFINITION_SHAPE('','',#14);
#14=PRODUCT_DEFINITION(' ','',#16,#15);
#15=PRODUCT_DEFINITION_CONTEXT('part definition',#21,'design');
#16=PRODUCT_DEFINITION_FORMATION_WITH_SPECIFIED_SOURCE(' ',' ',#18,
 .NOT_KNOWN.);
#17=PRODUCT_RELATED_PRODUCT_CATEGORY('part','',(#18));
#18=PRODUCT('model1','model1',' ',(#19));
#19=PRODUCT_CONTEXT(' ',#21,'mechanical');
#20=APPLICATION_PROTOCOL_DEFINITION('international standard',
'automotive_design',2010,#21);
#21=APPLICATION_CONTEXT(
'core data for automotive mechanical design processes');
#22=SHAPE_REPRESENTATION('model1-None',(#227),#344);
#23=PRESENTATION_LAYER_ASSIGNMENT('1','Layer 1',(#39,#40));
#24=STYLED_ITEM('',(#26),#39);
#25=STYLED_ITEM('',(#27),#40);
#26=PRESENTATION_STYLE_ASSIGNMENT((#28));
#27=PRESENTATION_STYLE_ASSIGNMENT((#29));
#28=SURFACE_STYLE_USAGE(.BOTH.,#30);
#29=SURFACE_STYLE_USAGE(.BOTH.,#31);
#30=SURFACE_SIDE_STYLE('',(#32));
#31=SURFACE_SIDE_STYLE('',(#33));
#32=SURFACE_STYLE_FILL_AREA(#34);
#33=SURFACE_STYLE_FILL_AREA(#35);
#34=FILL_AREA_STYLE('',(#36));
#35=FILL_AREA_STYLE('',(#37));
#36=FILL_AREA_STYLE_COLOUR('',#38);
#37=FILL_AREA_STYLE_COLOUR('',#38);
#38=COLOUR_RGB('medium steel',0.611764705882353,0.658823529411765,0.670588235294118);
#39=MANIFOLD_SOLID_BREP('SOLID0',#41);
#40=MANIFOLD_SOLID_BREP('SOLID1',#42);
#41=CLOSED_SHELL('SOLID0',(#43,#44,#45,#46,#47,#48));
#42=CLOSED_SHELL('SOLID1',(#49,#50,#51,#52,#53,#54));
#43=ADVANCED_FACE('Face0',(#67),#55,.T.);
#44=ADVANCED_FACE('Face1',(#68),#56,.T.);
#45=ADVANCED_FACE('Face2',(#69),#57,.T.);
#46=ADVANCED_FACE('Face3',(#70),#58,.T.);
#47=ADVANCED_FACE('Face4',(#71),#59,.F.);
#48=ADVANCED_FACE('Face5',(#72),#60,.T.);
#49=ADVANCED_FACE('Face6',(#73),#61,.T.);
#50=ADVANCED_FACE('Face7',(#74),#62,.T.);
#51=ADVANCED_FACE('Face8',(#75),#63,.T.);
#52=ADVANCED_FACE('Face9',(#76),#64,.T.);
#53=ADVANCED_FACE('Face10',(#77),#65,.F.);
#54=ADVANCED_FACE('Face11',(#78),#66,.T.);
#55=PLANE('',#228);
#56=PLANE('',#229);
#57=PLANE('',#230);
#58=PLANE('',#231);
#59=PLANE('',#232);
#60=PLANE('',#233);
#61=PLANE('',#234);
#62=PLANE('',#235);
#63=PLANE('',#236);
#64=PLANE('',#237);
#65=PLANE('',#238);
#66=PLANE('',#239);
#67=FACE_OUTER_BOUND('',#79,.T.);
#68=FACE_OUTER_BOUND('',#80,.T.);
#69=FACE_OUTER_BOUND('',#81,.T.);
#70=FACE_OUTER_BOUND('',#82,.T.);
#71=FACE_OUTER_BOUND('',#83,.T.);
#72=FACE_OUTER_BOUND('',#84,.T.);
#73=FACE_OUTER_BOUND('',#85,.T.);
#74=FACE_OUTER_BOUND('',#86,.T.);
#75=FACE_OUTER_BOUND('',#87,.T.);
#76=FACE_OUTER_BOUND('',#88,.T.);
#77=FACE_OUTER_BOUND('',#89,.T.);
#78=FACE_OUTER_BOUND('',#90,.T.);
#79=EDGE_LOOP('',(#91,#92,#93,#94));
#80=EDGE_LOOP('',(#95,#96,#97,#98));
#81=EDGE_LOOP('',(#99,#100,#101,#102));
#82=EDGE_LOOP('',(#103,#104,#105,#106));
#83=EDGE_LOOP('',(#107,#108,#109,#110));
#84=EDGE_LOOP('',(#111,#112,#113,#114));
#85=EDGE_LOOP('',(#115,#116,#117,#118));
#86=EDGE_LOOP('',(#119,#120,#121,#122));
#87=EDGE_LOOP('',(#123,#124,#125,#126));
#88=EDGE_LOOP('',(#127,#128,#129,#130));
#89=EDGE_LOOP('',(#131,#132,#133,#134));
#90=EDGE_LOOP('',(#135,#136,#137,#138));
#91=ORIENTED_EDGE('',*,*,#155,.F.);
#92=ORIENTED_EDGE('',*,*,#156,.F.);
#93=ORIENTED_EDGE('',*,*,#157,.T.);
#94=ORIENTED_EDGE('',*,*,#158,.T.);
#95=ORIENTED_EDGE('',*,*,#159,.F.);
#96=ORIENTED_EDGE('',*,*,#158,.F.);
#97=ORIENTED_EDGE('',*,*,#160,.T.);
#98=ORIENTED_EDGE('',*,*,#161,.T.);
#99=ORIENTED_EDGE('',*,*,#162,.F.);
#100=ORIENTED_EDGE('',*,*,#161,.F.);
#101=ORIENTED_EDGE('',*,*,#163,.T.);
#102=ORIENTED_EDGE('',*,*,#164,.T.);
#103=ORIENTED_EDGE('',*,*,#165,.F.);
#104=ORIENTED_EDGE('',*,*,#164,.F.);
#105=ORIENTED_EDGE('',*,*,#166,.T.);
#106=ORIENTED_EDGE('',*,*,#156,.T.);
#107=ORIENTED_EDGE('',*,*,#157,.F.);
#108=ORIENTED_EDGE('',*,*,#166,.F.);
#109=ORIENTED_EDGE('',*,*,#163,.F.);
#110=ORIENTED_EDGE('',*,*,#160,.F.);
#111=ORIENTED_EDGE('',*,*,#155,.T.);
#112=ORIENTED_EDGE('',*,*,#159,.T.);
#113=ORIENTED_EDGE('',*,*,#162,.T.);
#114=ORIENTED_EDGE('',*,*,#165,.T.);
#115=ORIENTED_EDGE('',*,*,#167,.F.);
#116=ORIENTED_EDGE('',*,*,#168,.F.);
#117=ORIENTED_EDGE('',*,*,#169,.T.);
#118=ORIENTED_EDGE('',*,*,#170,.T.);
#119=ORIENTED_EDGE('',*,*,#171,.F.);
#120=ORIENTED_EDGE('',*,*,#170,.F.);
#121=ORIENTED_EDGE('',*,*,#172,.T.);
#122=ORIENTED_EDGE('',*,*,#173,.T.);
#123=ORIENTED_EDGE('',*,*,#174,.F.);
#124=ORIENTED_EDGE('',*,*,#173,.F.);
#125=ORIENTED_EDGE('',*,*,#175,.T.);
#126=ORIENTED_EDGE('',*,*,#176,.T.);
#127=ORIENTED_EDGE('',*,*,#177,.F.);
#128=ORIENTED_EDGE('',*,*,#176,.F.);
#129=ORIENTED_EDGE('',*,*,#178,.T.);
#130=ORIENTED_EDGE('',*,*,#168,.T.);
#131=ORIENTED_EDGE('',*,*,#169,.F.);
#132=ORIENTED_EDGE('',*,*,#178,.F.);
#133=ORIENTED_EDGE('',*,*,#175,.F.);
#134=ORIENTED_EDGE('',*,*,#172,.F.);
#135=ORIENTED_EDGE('',*,*,#167,.T.);
#136=ORIENTED_EDGE('',*,*,#171,.T.);
#137=ORIENTED_EDGE('',*,*,#174,.T.);
#138=ORIENTED_EDGE('',*,*,#177,.T.);
#139=VERTEX_POINT('',#292);
#140=VERTEX_POINT('',#293);
#141=VERTEX_POINT('',#295);
#142=VERTEX_POINT('',#297);
#143=VERTEX_POINT('',#301);
#144=VERTEX_POINT('',#303);
#145=VERTEX_POINT('',#307);
#146=VERTEX_POINT('',#309);
#147=VERTEX_POINT('',#318);
#148=VERTEX_POINT('',#319);
#149=VERTEX_POINT('',#321);
#150=VERTEX_POINT('',#323);
#151=VERTEX_POINT('',#327);
#152=VERTEX_POINT('',#329);
#153=VERTEX_POINT('',#333);
#154=VERTEX_POINT('',#335);
#155=EDGE_CURVE('',#139,#140,#179,.T.);
#156=EDGE_CURVE('',#141,#139,#180,.T.);
#157=EDGE_CURVE('',#141,#142,#181,.T.);
#158=EDGE_CURVE('',#142,#140,#182,.T.);
#159=EDGE_CURVE('',#140,#143,#183,.T.);
#160=EDGE_CURVE('',#142,#144,#184,.T.);
#161=EDGE_CURVE('',#144,#143,#185,.T.);
#162=EDGE_CURVE('',#143,#145,#186,.T.);
#163=EDGE_CURVE('',#144,#146,#187,.T.);
#164=EDGE_CURVE('',#146,#145,#188,.T.);
#165=EDGE_CURVE('',#145,#139,#189,.T.);
#166=EDGE_CURVE('',#146,#141,#190,.T.);
#167=EDGE_CURVE('',#147,#148,#191,.T.);
#168=EDGE_CURVE('',#149,#147,#192,.T.);
#169=EDGE_CURVE('',#149,#150,#193,.T.);
#170=EDGE_CURVE('',#150,#148,#194,.T.);
#171=EDGE_CURVE('',#148,#151,#195,.T.);
#172=EDGE_CURVE('',#150,#152,#196,.T.);
#173=EDGE_CURVE('',#152,#151,#197,.T.);
#174=EDGE_CURVE('',#151,#153,#198,.T.);
#175=EDGE_CURVE('',#152,#154,#199,.T.);
#176=EDGE_CURVE('',#154,#153,#200,.T.);
#177=EDGE_CURVE('',#153,#147,#201,.T.);
#178=EDGE_CURVE('',#154,#149,#202,.T.);
#179=LINE('',#291,#203);
#180=LINE('',#294,#204);
#181=LINE('',#296,#205);
#182=LINE('',#298,#206);
#183=LINE('',#300,#207);
#184=LINE('',#302,#208);
#185=LINE('',#304,#209);
#186=LINE('',#306,#210);
#187=LINE('',#308,#211);
#188=LINE('',#310,#212);
#189=LINE('',#312,#213);
#190=LINE('',#313,#214);
#191=LINE('',#317,#215);
#192=LINE('',#320,#216);
#193=LINE('',#322,#217);
#194=LINE('',#324,#218);
#195=LINE('',#326,#219);
#196=LINE('',#328,#220);
#197=LINE('',#330,#221);
#198=LINE('',#332,#222);
#199=LINE('',#334,#223);
#200=LINE('',#336,#224);
#201=LINE('',#338,#225);
#202=LINE('',#339,#226);
#203=VECTOR('',#242,1.);
#204=VECTOR('',#243,1.);
#205=VECTOR('',#244,1.);
#206=VECTOR('',#245,1.);
#207=VECTOR('',#248,1.);
#208=VECTOR('',#249,1.);
#209=VECTOR('',#250,1.);
#210=VECTOR('',#253,1.);
#211=VECTOR('',#254,1.);
#212=VECTOR('',#255,1.);
#213=VECTOR('',#258,1.);
#214=VECTOR('',#259,1.);
#215=VECTOR('',#266,1.);
#216=VECTOR('',#267,1.);
#217=VECTOR('',#268,1.);
#218=VECTOR('',#269,1.);
#219=VECTOR('',#272,1.);
#220=VECTOR('',#273,1.);
#221=VECTOR('',#274,1.);
#222=VECTOR('',#277,1.);
#223=VECTOR('',#278,1.);
#224=VECTOR('',#279,1.);
#225=VECTOR('',#282,1.);
#226=VECTOR('',#283,1.);
#227=AXIS2_PLACEMENT_3D('',#290,#240,#241);
#228=AXIS2_PLACEMENT_3D('',#299,#246,#247);
#229=AXIS2_PLACEMENT_3D('',#305,#251,#252);
#230=AXIS2_PLACEMENT_3D('',#311,#256,#257);
#231=AXIS2_PLACEMENT_3D('',#314,#260,#261);
#232=AXIS2_PLACEMENT_3D('',#315,#262,#263);
#233=AXIS2_PLACEMENT_3D('',#316,#264,#265);
#234=AXIS2_PLACEMENT_3D('',#325,#270,#271);
#235=AXIS2_PLACEMENT_3D('',#331,#275,#276);
#236=AXIS2_PLACEMENT_3D('',#337,#280,#281);
#237=AXIS2_PLACEMENT_3D('',#340,#284,#285);
#238=AXIS2_PLACEMENT_3D('',#341,#286,#287);
#239=AXIS2_PLACEMENT_3D('',#342,#288,#289);
#240=DIRECTION('',(0.,0.,1.));
#241=DIRECTION('',(1.,0.,0.));
#242=DIRECTION('',(0.,1.,0.));
#243=DIRECTION('',(0.,0.,-1.));
#244=DIRECTION('',(0.,1.,0.));
#245=DIRECTION('',(0.,0.,-1.));
#246=DIRECTION('',(-1.,0.,0.));
#247=DIRECTION('',(0.,0.,1.));
#248=DIRECTION('',(1.,0.,0.));
#249=DIRECTION('',(1.,0.,0.));
#250=DIRECTION('',(0.,0.,-1.));
#251=DIRECTION('',(0.,1.,0.));
#252=DIRECTION('',(0.,0.,1.));
#253=DIRECTION('',(0.,-1.,0.));
#254=DIRECTION('',(0.,-1.,0.));
#255=DIRECTION('',(0.,0.,-1.));
#256=DIRECTION('',(1.,0.,0.));
#257=DIRECTION('',(0.,0.,-1.));
#258=DIRECTION('',(-1.,0.,0.));
#259=DIRECTION('',(-1.,0.,0.));
#260=DIRECTION('',(0.,-1.,0.));
#261=DIRECTION('',(0.,0.,-1.));
#262=DIRECTION('',(0.,0.,-1.));
#263=DIRECTION('',(-1.,0.,0.));
#264=DIRECTION('',(0.,0.,-1.));
#265=DIRECTION('',(-1.,0.,0.));
#266=DIRECTION('',(0.,1.,0.));
#267=DIRECTION('',(0.,0.,-1.));
#268=DIRECTION('',(0.,1.,0.));
#269=DIRECTION('',(0.,0.,-1.));
#270=DIRECTION('',(-1.,0.,0.));
#271=DIRECTION('',(0.,0.,1.));
#272=DIRECTION('',(1.,0.,0.));
#273=DIRECTION('',(1.,0.,0.));
#274=DIRECTION('',(0.,0.,-1.));
#275=DIRECTION('',(0.,1.,0.));
#276=DIRECTION('',(0.,0.,1.));
#277=DIRECTION('',(0.,-1.,0.));
#278=DIRECTION('',(0.,-1.,0.));
#279=DIRECTION('',(0.,0.,-1.));
#280=DIRECTION('',(1.,0.,0.));
#281=DIRECTION('',(0.,0.,-1.));
#282=DIRECTION('',(-1.,0.,0.));
#283=DIRECTION('',(-1.,0.,0.));
#284=DIRECTION('',(0.,-1.,0.));
#285=DIRECTION('',(0.,0.,-1.));
#286=DIRECTION('',(0.,0.,-1.));
#287=DIRECTION('',(-1.,0.,0.));
#288=DIRECTION('',(0.,0.,-1.));
#289=DIRECTION('',(-1.,0.,0.));
#290=CARTESIAN_POINT('',(0.,0.,0.));
#291=CARTESIAN_POINT('',(0.,-100.,0.));
#292=CARTESIAN_POINT('',(0.,-100.,0.));
#293=CARTESIAN_POINT('',(0.,0.,0.));
#294=CARTESIAN_POINT('',(0.,-100.,20.));
#295=CARTESIAN_POINT('',(0.,-100.,20.));
#296=CARTESIAN_POINT('',(0.,-100.,20.));
#297=CARTESIAN_POINT('',(0.,0.,20.));
#298=CARTESIAN_POINT('',(0.,0.,20.));
#299=CARTESIAN_POINT('',(0.,-100.,20.));
#300=CARTESIAN_POINT('',(0.,0.,0.));
#301=CARTESIAN_POINT('',(20.,0.,0.));
#302=CARTESIAN_POINT('',(0.,0.,20.));
#303=CARTESIAN_POINT('',(20.,0.,20.));
#304=CARTESIAN_POINT('',(20.,0.,20.));
#305=CARTESIAN_POINT('',(0.,0.,20.));
#306=CARTESIAN_POINT('',(20.,0.,0.));
#307=CARTESIAN_POINT('',(20.,-100.,0.));
#308=CARTESIAN_POINT('',(20.,0.,20.));
#309=CARTESIAN_POINT('',(20.,-100.,20.));
#310=CARTESIAN_POINT('',(20.,-100.,20.));
#311=CARTESIAN_POINT('',(20.,0.,20.));
#312=CARTESIAN_POINT('',(20.,-100.,0.));
#313=CARTESIAN_POINT('',(20.,-100.,20.));
#314=CARTESIAN_POINT('',(20.,-100.,20.));
#315=CARTESIAN_POINT('',(0.,0.,20.));
#316=CARTESIAN_POINT('',(0.,0.,0.));
#317=CARTESIAN_POINT('',(0.,0.,0.));
#318=CARTESIAN_POINT('',(0.,0.,0.));
#319=CARTESIAN_POINT('',(0.,100.,0.));
#320=CARTESIAN_POINT('',(0.,0.,20.));
#321=CARTESIAN_POINT('',(0.,0.,20.));
#322=CARTESIAN_POINT('',(0.,0.,20.));
#323=CARTESIAN_POINT('',(0.,100.,20.));
#324=CARTESIAN_POINT('',(0.,100.,20.));
#325=CARTESIAN_POINT('',(0.,0.,20.));
#326=CARTESIAN_POINT('',(0.,100.,0.));
#327=CARTESIAN_POINT('',(20.,100.,0.));
#328=CARTESIAN_POINT('',(0.,100.,20.));
#329=CARTESIAN_POINT('',(20.,100.,20.));
#330=CARTESIAN_POINT('',(20.,100.,20.));
#331=CARTESIAN_POINT('',(0.,100.,20.));
#332=CARTESIAN_POINT('',(20.,100.,0.));
#333=CARTESIAN_POINT('',(20.,0.,0.));
#334=CARTESIAN_POINT('',(20.,100.,20.));
#335=CARTESIAN_POINT('',(20.,0.,20.));
#336=CARTESIAN_POINT('',(20.,0.,20.));
#337=CARTESIAN_POINT('',(20.,100.,20.));
#338=CARTESIAN_POINT('',(20.,0.,0.));
#339=CARTESIAN_POINT('',(20.,0.,20.));
#340=CARTESIAN_POINT('',(20.,0.,20.));
#341=CARTESIAN_POINT('',(0.,100.,20.));
#342=CARTESIAN_POINT('',(0.,100.,0.));
#343=MECHANICAL_DESIGN_GEOMETRIC_PRESENTATION_REPRESENTATION('',(#24,#25),
#344);
#344=(
GEOMETRIC_REPRESENTATION_CONTEXT(3)
GLOBAL_UNCERTAINTY_ASSIGNED_CONTEXT((#345))
GLOBAL_UNIT_ASSIGNED_CONTEXT((#351,#347,#346))
REPRESENTATION_CONTEXT('PoutreCoupe','TOP_LEVEL_ASSEMBLY_PART')
);
#345=UNCERTAINTY_MEASURE_WITH_UNIT(LENGTH_MEASURE(2.E-5),#351,
'DISTANCE_ACCURACY_VALUE','Maximum Tolerance applied to model');
#346=(
NAMED_UNIT(*)
SI_UNIT($,.STERADIAN.)
SOLID_ANGLE_UNIT()
);
#347=(
CONVERSION_BASED_UNIT('DEGREE',#349)
NAMED_UNIT(#348)
PLANE_ANGLE_UNIT()
);
#348=DIMENSIONAL_EXPONENTS(0.,0.,0.,0.,0.,0.,0.);
#349=PLANE_ANGLE_MEASURE_WITH_UNIT(PLANE_ANGLE_MEASURE(0.0174532925),#350);
#350=(
NAMED_UNIT(*)
PLANE_ANGLE_UNIT()
SI_UNIT($,.RADIAN.)
);
#351=(
LENGTH_UNIT()
NAMED_UNIT(*)
SI_UNIT(.MILLI.,.METRE.)
);
ENDSEC;
END-ISO-10303-21;
