ISO-10303-21;
HEADER;
FILE_DESCRIPTION (( 'STEP AP203' ),
    '1' );
FILE_NAME ('Gleitlager_D48mm_w17mm_top.step',
    '2025-02-17T09:32:06',
    ( '' ),
    ( '' ),
    'SwSTEP 2.0',
    'SolidWorks 2023',
    '' );
FILE_SCHEMA (( 'CONFIG_CONTROL_DESIGN' ));
ENDSEC;

DATA;
#1 = DIRECTION ( 'NONE',  ( -0.000000000000000000, -0.000000000000000000, -1.000000000000000000 ) ) ;
#2 = AXIS2_PLACEMENT_3D ( 'NONE', #115, #93, #174 ) ;
#3 = ORIENTED_EDGE ( 'NONE', *, *, #257, .F. ) ;
#4 = ORIENTED_EDGE ( 'NONE', *, *, #172, .T. ) ;
#5 = LINE ( 'NONE', #14, #133 ) ;
#6 = VECTOR ( 'NONE', #76, 1000.000000000000114 ) ;
#7 = CC_DESIGN_PERSON_AND_ORGANIZATION_ASSIGNMENT ( #59, #138, ( #189 ) ) ;
#8 = DIRECTION ( 'NONE',  ( -0.000000000000000000, -0.000000000000000000, 1.000000000000000000 ) ) ;
#9 = CARTESIAN_POINT ( 'NONE',  ( 0.000000000000000000, 0.000000000000000000, 8750.000000000000000 ) ) ;
#10 = EDGE_CURVE ( 'NONE', #210, #42, #231, .T. ) ;
#11 = CARTESIAN_POINT ( 'NONE',  ( 0.000000000000000000, 0.000000000000000000, 8750.000000000000000 ) ) ;
#12 = EDGE_CURVE ( 'NONE', #24, #106, #78, .T. ) ;
#13 = CIRCLE ( 'NONE', #255, 24000.00000000000000 ) ;
#14 = CARTESIAN_POINT ( 'NONE',  ( -24000.00000000000000, 0.000000000000000000, 8750.000000000000000 ) ) ;
#15 = COORDINATED_UNIVERSAL_TIME_OFFSET ( 1, 0, .AHEAD. ) ;
#16 = PERSON_AND_ORGANIZATION ( #47, #56 ) ;
#17 = AXIS2_PLACEMENT_3D ( 'NONE', #9, #135, #53 ) ;
#18 = EDGE_CURVE ( 'NONE', #253, #24, #13, .T. ) ;
#19 = VERTEX_POINT ( 'NONE', #49 ) ;
#20 = EDGE_CURVE ( 'NONE', #258, #164, #143, .T. ) ;
#21 = APPLICATION_PROTOCOL_DEFINITION ( 'international standard', 'config_control_design', 1994, #148 ) ;
#22 = APPROVAL_STATUS ( 'not_yet_approved' ) ;
#23 = CIRCLE ( 'NONE', #178, 24000.00000000000000 ) ;
#24 = VERTEX_POINT ( 'NONE', #170 ) ;
#25 = APPROVAL_PERSON_ORGANIZATION ( #40, #160, #188 ) ;
#26 = ORIENTED_EDGE ( 'NONE', *, *, #35, .F. ) ;
#27 = CARTESIAN_POINT ( 'NONE',  ( 0.000000000000000000, 0.000000000000000000, 8750.000000000000000 ) ) ;
#28 = DIRECTION ( 'NONE',  ( 0.000000000000000000, 0.000000000000000000, 1.000000000000000000 ) ) ;
#29 = AXIS2_PLACEMENT_3D ( 'NONE', #88, #28, #254 ) ;
#30 = ORIENTED_EDGE ( 'NONE', *, *, #184, .F. ) ;
#31 = FACE_OUTER_BOUND ( 'NONE', #191, .T. ) ;
#32 = CARTESIAN_POINT ( 'NONE',  ( 24000.00000000000000, 2.939152317953647595E-12, 8750.000000000000000 ) ) ;
#33 = CARTESIAN_POINT ( 'NONE',  ( 0.000000000000000000, 0.000000000000000000, 8750.000000000000000 ) ) ;
#34 = LINE ( 'NONE', #58, #50 ) ;
#35 = EDGE_CURVE ( 'NONE', #103, #42, #259, .T. ) ;
#36 = CARTESIAN_POINT ( 'NONE',  ( 16970.56274847718305, -16970.56274847709938, 0.000000000000000000 ) ) ;
#37 = CC_DESIGN_SECURITY_CLASSIFICATION ( #229, ( #189 ) ) ;
#38 = DATE_AND_TIME ( #117, #137 ) ;
#39 = CARTESIAN_POINT ( 'NONE',  ( 0.000000000000000000, 0.000000000000000000, 0.000000000000000000 ) ) ;
#40 = PERSON_AND_ORGANIZATION ( #47, #56 ) ;
#41 = APPLICATION_PROTOCOL_DEFINITION ( 'international standard', 'config_control_design', 1994, #168 ) ;
#42 = VERTEX_POINT ( 'NONE', #69 ) ;
#43 = CALENDAR_DATE ( 2025, 17, 2 ) ;
#44 = ORIENTED_EDGE ( 'NONE', *, *, #131, .F. ) ;
#45 = CARTESIAN_POINT ( 'NONE',  ( -0.000000000000000000, 0.000000000000000000, 8750.000000000000000 ) ) ;
#46 = LINE ( 'NONE', #192, #85 ) ;
#47 = PERSON ( 'UNSPECIFIED', 'UNSPECIFIED', 'UNSPECIFIED', ('UNSPECIFIED'), ('UNSPECIFIED'), ('UNSPECIFIED') ) ;
#48 = CARTESIAN_POINT ( 'NONE',  ( 0.000000000000000000, 0.000000000000000000, 0.000000000000000000 ) ) ;
#49 = CARTESIAN_POINT ( 'NONE',  ( 0.000000000000000000, 0.000000000000000000, 0.000000000000000000 ) ) ;
#50 = VECTOR ( 'NONE', #8, 1000.000000000000000 ) ;
#51 = CARTESIAN_POINT ( 'NONE',  ( 0.000000000000000000, 0.000000000000000000, 8750.000000000000000 ) ) ;
#52 = CC_DESIGN_PERSON_AND_ORGANIZATION_ASSIGNMENT ( #16, #227, ( #215 ) ) ;
#53 = DIRECTION ( 'NONE',  ( 1.000000000000000000, 0.000000000000000000, -0.000000000000000000 ) ) ;
#54 = DIRECTION ( 'NONE',  ( 0.000000000000000000, 0.000000000000000000, 1.000000000000000000 ) ) ;
#55 = AXIS2_PLACEMENT_3D ( 'NONE', #246, #75, #157 ) ;
#56 = ORGANIZATION ( 'UNSPECIFIED', 'UNSPECIFIED', '' ) ;
#57 = DIRECTION ( 'NONE',  ( -0.7071067811865464625, 0.7071067811865486830, 0.000000000000000000 ) ) ;
#58 = CARTESIAN_POINT ( 'NONE',  ( 16970.56274847718305, -16970.56274847709938, 0.000000000000000000 ) ) ;
#59 = PERSON_AND_ORGANIZATION ( #47, #56 ) ;
#60 = CC_DESIGN_PERSON_AND_ORGANIZATION_ASSIGNMENT ( #251, #144, ( #189 ) ) ;
#61 = PERSON_AND_ORGANIZATION_ROLE ( 'classification_officer' ) ;
#62 = ORIENTED_EDGE ( 'NONE', *, *, #226, .T. ) ;
#63 = AXIS2_PLACEMENT_3D ( 'NONE', #51, #198, #262 ) ;
#64 = ORIENTED_EDGE ( 'NONE', *, *, #35, .T. ) ;
#65 = CARTESIAN_POINT ( 'NONE',  ( -16970.56274847716486, -16970.56274847711393, 0.000000000000000000 ) ) ;
#66 = EDGE_CURVE ( 'NONE', #19, #210, #46, .T. ) ;
#67 = ORIENTED_EDGE ( 'NONE', *, *, #131, .T. ) ;
#68 = ORIENTED_EDGE ( 'NONE', *, *, #139, .F. ) ;
#69 = CARTESIAN_POINT ( 'NONE',  ( -16970.56274847716486, -16970.56274847711393, 8750.000000000000000 ) ) ;
#70 = VECTOR ( 'NONE', #234, 1000.000000000000000 ) ;
#71 = LOCAL_TIME ( 10, 32, 6.000000000000000000, #182 ) ;
#72 = DIRECTION ( 'NONE',  ( -0.7071067811865486830, -0.7071067811865464625, 0.000000000000000000 ) ) ;
#73 = FACE_OUTER_BOUND ( 'NONE', #82, .T. ) ;
#74 = CARTESIAN_POINT ( 'NONE',  ( 0.000000000000000000, 0.000000000000000000, 0.000000000000000000 ) ) ;
#75 = DIRECTION ( 'NONE',  ( -0.000000000000000000, -0.000000000000000000, -1.000000000000000000 ) ) ;
#76 = DIRECTION ( 'NONE',  ( 0.7071067811865491270, -0.7071067811865459074, 0.000000000000000000 ) ) ;
#77 = PERSON_AND_ORGANIZATION_ROLE ( 'creator' ) ;
#78 = CIRCLE ( 'NONE', #222, 24000.00000000000000 ) ;
#79 = SECURITY_CLASSIFICATION_LEVEL ( 'unclassified' ) ;
#80 =( LENGTH_UNIT ( ) NAMED_UNIT ( * ) SI_UNIT ( .MILLI., .METRE. ) );
#81 = DATE_AND_TIME ( #273, #92 ) ;
#82 = EDGE_LOOP ( 'NONE', ( #87, #186, #162, #269 ) ) ;
#83 = DIRECTION ( 'NONE',  ( 1.000000000000000000, 0.000000000000000000, 0.000000000000000000 ) ) ;
#84 = ADVANCED_FACE ( 'NONE', ( #125 ), #212, .T. ) ;
#85 = VECTOR ( 'NONE', #152, 1000.000000000000000 ) ;
#86 = CC_DESIGN_APPROVAL ( #202, ( #263 ) ) ;
#87 = ORIENTED_EDGE ( 'NONE', *, *, #20, .F. ) ;
#88 = CARTESIAN_POINT ( 'NONE',  ( 0.000000000000000000, 0.000000000000000000, 8750.000000000000000 ) ) ;
#89 = ADVANCED_BREP_SHAPE_REPRESENTATION ( 'Gleitlager_D48mm_w17mm_top', ( #225, #228 ), #116 ) ;
#90 = PRODUCT_RELATED_PRODUCT_CATEGORY ( 'detail', '', ( #215 ) ) ;
#91 = CARTESIAN_POINT ( 'NONE',  ( -24000.00000000000000, 0.000000000000000000, 8750.000000000000000 ) ) ;
#92 = LOCAL_TIME ( 10, 32, 6.000000000000000000, #15 ) ;
#93 = DIRECTION ( 'NONE',  ( 0.000000000000000000, 0.000000000000000000, 1.000000000000000000 ) ) ;
#94 = CARTESIAN_POINT ( 'NONE',  ( -16970.56274847716486, -16970.56274847711393, 0.000000000000000000 ) ) ;
#95 = CC_DESIGN_PERSON_AND_ORGANIZATION_ASSIGNMENT ( #268, #77, ( #263 ) ) ;
#96 = PLANE ( 'NONE',  #171 ) ;
#97 = CARTESIAN_POINT ( 'NONE',  ( 24000.00000000000000, 2.939152317953647595E-12, 8750.000000000000000 ) ) ;
#98 = VECTOR ( 'NONE', #136, 999.9999999999998863 ) ;
#99 = DATE_AND_TIME ( #158, #197 ) ;
#100 = DATE_TIME_ROLE ( 'creation_date' ) ;
#101 = MECHANICAL_CONTEXT ( 'NONE', #148, 'mechanical' ) ;
#102 = LOCAL_TIME ( 10, 32, 6.000000000000000000, #230 ) ;
#103 = VERTEX_POINT ( 'NONE', #94 ) ;
#104 = APPROVAL ( #22, 'UNSPECIFIED' ) ;
#105 = ORIENTED_EDGE ( 'NONE', *, *, #20, .T. ) ;
#106 = VERTEX_POINT ( 'NONE', #240 ) ;
#107 = ORIENTED_EDGE ( 'NONE', *, *, #18, .F. ) ;
#108 = PRODUCT_DEFINITION_SHAPE ( 'NONE', 'NONE',  #263 ) ;
#109 = ORIENTED_EDGE ( 'NONE', *, *, #233, .T. ) ;
#110 = CARTESIAN_POINT ( 'NONE',  ( 0.000000000000000000, 0.000000000000000000, 0.000000000000000000 ) ) ;
#111 = DIRECTION ( 'NONE',  ( -0.000000000000000000, -0.000000000000000000, -1.000000000000000000 ) ) ;
#112 = AXIS2_PLACEMENT_3D ( 'NONE', #27, #1, #122 ) ;
#113 = DIRECTION ( 'NONE',  ( -0.000000000000000000, -0.000000000000000000, -1.000000000000000000 ) ) ;
#114 = CARTESIAN_POINT ( 'NONE',  ( 0.000000000000000000, 0.000000000000000000, 8750.000000000000000 ) ) ;
#115 = CARTESIAN_POINT ( 'NONE',  ( 0.000000000000000000, 0.000000000000000000, 8750.000000000000000 ) ) ;
#116 =( GEOMETRIC_REPRESENTATION_CONTEXT ( 3 ) GLOBAL_UNCERTAINTY_ASSIGNED_CONTEXT ( ( #218 ) ) GLOBAL_UNIT_ASSIGNED_CONTEXT ( ( #80, #141, #185 ) ) REPRESENTATION_CONTEXT ( 'NONE', 'WORKASPACE' ) );
#117 = CALENDAR_DATE ( 2025, 17, 2 ) ;
#118 = APPROVAL_STATUS ( 'not_yet_approved' ) ;
#119 = VECTOR ( 'NONE', #132, 1000.000000000000114 ) ;
#120 = ORIENTED_EDGE ( 'NONE', *, *, #18, .T. ) ;
#121 = DATE_AND_TIME ( #43, #102 ) ;
#122 = DIRECTION ( 'NONE',  ( -1.000000000000000000, 0.000000000000000000, 0.000000000000000000 ) ) ;
#123 = AXIS2_PLACEMENT_3D ( 'NONE', #217, #267, #241 ) ;
#124 = DIRECTION ( 'NONE',  ( 0.000000000000000000, 0.000000000000000000, 1.000000000000000000 ) ) ;
#125 = FACE_OUTER_BOUND ( 'NONE', #145, .T. ) ;
#126 = DIRECTION ( 'NONE',  ( 0.000000000000000000, 0.000000000000000000, 1.000000000000000000 ) ) ;
#127 = ORIENTED_EDGE ( 'NONE', *, *, #10, .F. ) ;
#128 = PLANE ( 'NONE',  #123 ) ;
#129 = LINE ( 'NONE', #74, #6 ) ;
#130 = CC_DESIGN_PERSON_AND_ORGANIZATION_ASSIGNMENT ( #249, #61, ( #229 ) ) ;
#131 = EDGE_CURVE ( 'NONE', #106, #103, #23, .T. ) ;
#132 = DIRECTION ( 'NONE',  ( 0.7071067811865491270, -0.7071067811865459074, 0.000000000000000000 ) ) ;
#133 = VECTOR ( 'NONE', #196, 1000.000000000000000 ) ;
#134 = DESIGN_CONTEXT ( 'detailed design', #168, 'design' ) ;
#135 = DIRECTION ( 'NONE',  ( 0.000000000000000000, 0.000000000000000000, 1.000000000000000000 ) ) ;
#136 = DIRECTION ( 'NONE',  ( -0.7071067811865486830, -0.7071067811865464625, 0.000000000000000000 ) ) ;
#137 = LOCAL_TIME ( 10, 32, 6.000000000000000000, #272 ) ;
#138 = PERSON_AND_ORGANIZATION_ROLE ( 'design_supplier' ) ;
#139 = EDGE_CURVE ( 'NONE', #253, #209, #34, .T. ) ;
#140 = APPROVAL_ROLE ( '' ) ;
#141 =( NAMED_UNIT ( * ) PLANE_ANGLE_UNIT ( ) SI_UNIT ( $, .RADIAN. ) );
#142 = ORIENTED_EDGE ( 'NONE', *, *, #12, .F. ) ;
#143 = CIRCLE ( 'NONE', #29, 24000.00000000000000 ) ;
#144 = PERSON_AND_ORGANIZATION_ROLE ( 'creator' ) ;
#145 = EDGE_LOOP ( 'NONE', ( #150, #109, #67, #64 ) ) ;
#146 = ADVANCED_FACE ( 'NONE', ( #216 ), #128, .T. ) ;
#147 = ORIENTED_EDGE ( 'NONE', *, *, #172, .F. ) ;
#148 = APPLICATION_CONTEXT ( 'configuration controlled 3d designs of mechanical parts and assemblies' ) ;
#149 = EDGE_LOOP ( 'NONE', ( #127, #194, #213, #105, #214 ) ) ;
#150 = ORIENTED_EDGE ( 'NONE', *, *, #266, .F. ) ;
#151 = VECTOR ( 'NONE', #236, 999.9999999999998863 ) ;
#152 = DIRECTION ( 'NONE',  ( -0.000000000000000000, -0.000000000000000000, 1.000000000000000000 ) ) ;
#153 = FACE_OUTER_BOUND ( 'NONE', #149, .T. ) ;
#154 = CYLINDRICAL_SURFACE ( 'NONE', #252, 24000.00000000000000 ) ;
#155 = LINE ( 'NONE', #32, #271 ) ;
#156 = CIRCLE ( 'NONE', #63, 24000.00000000000000 ) ;
#157 = DIRECTION ( 'NONE',  ( -1.000000000000000000, 0.000000000000000000, 0.000000000000000000 ) ) ;
#158 = CALENDAR_DATE ( 2025, 17, 2 ) ;
#159 = DATE_AND_TIME ( #203, #71 ) ;
#160 = APPROVAL ( #118, 'UNSPECIFIED' ) ;
#161 = APPROVAL_STATUS ( 'not_yet_approved' ) ;
#162 = ORIENTED_EDGE ( 'NONE', *, *, #12, .T. ) ;
#163 = APPROVAL_DATE_TIME ( #81, #104 ) ;
#164 = VERTEX_POINT ( 'NONE', #91 ) ;
#165 = DIRECTION ( 'NONE',  ( 1.000000000000000000, 0.000000000000000000, 0.000000000000000000 ) ) ;
#166 = ADVANCED_FACE ( 'NONE', ( #31 ), #96, .F. ) ;
#167 = CARTESIAN_POINT ( 'NONE',  ( 0.000000000000000000, 0.000000000000000000, 0.000000000000000000 ) ) ;
#168 = APPLICATION_CONTEXT ( 'configuration controlled 3d designs of mechanical parts and assemblies' ) ;
#169 = ORIENTED_EDGE ( 'NONE', *, *, #66, .T. ) ;
#170 = CARTESIAN_POINT ( 'NONE',  ( 24000.00000000000000, 2.939152317953647595E-12, 0.000000000000000000 ) ) ;
#171 = AXIS2_PLACEMENT_3D ( 'NONE', #173, #54, #179 ) ;
#172 = EDGE_CURVE ( 'NONE', #19, #253, #129, .T. ) ;
#173 = CARTESIAN_POINT ( 'NONE',  ( 0.000000000000000000, 0.000000000000000000, 0.000000000000000000 ) ) ;
#174 = DIRECTION ( 'NONE',  ( 1.000000000000000000, 0.000000000000000000, 0.000000000000000000 ) ) ;
#175 = LINE ( 'NONE', #114, #119 ) ;
#176 = EDGE_CURVE ( 'NONE', #210, #209, #175, .T. ) ;
#177 = CARTESIAN_POINT ( 'NONE',  ( 0.000000000000000000, 0.000000000000000000, 0.000000000000000000 ) ) ;
#178 = AXIS2_PLACEMENT_3D ( 'NONE', #220, #201, #245 ) ;
#179 = DIRECTION ( 'NONE',  ( 1.000000000000000000, 0.000000000000000000, -0.000000000000000000 ) ) ;
#180 = APPROVAL_ROLE ( '' ) ;
#181 = ORIENTED_EDGE ( 'NONE', *, *, #66, .F. ) ;
#182 = COORDINATED_UNIVERSAL_TIME_OFFSET ( 1, 0, .AHEAD. ) ;
#183 = CC_DESIGN_DATE_AND_TIME_ASSIGNMENT ( #159, #100, ( #263 ) ) ;
#184 = EDGE_CURVE ( 'NONE', #258, #24, #155, .T. ) ;
#185 =( NAMED_UNIT ( * ) SI_UNIT ( $, .STERADIAN. ) SOLID_ANGLE_UNIT ( ) );
#186 = ORIENTED_EDGE ( 'NONE', *, *, #184, .T. ) ;
#187 = DIRECTION ( 'NONE',  ( 1.000000000000000000, 0.000000000000000000, 0.000000000000000000 ) ) ;
#188 = APPROVAL_ROLE ( '' ) ;
#189 = PRODUCT_DEFINITION_FORMATION_WITH_SPECIFIED_SOURCE ( 'ANY', '', #215, .NOT_KNOWN. ) ;
#190 = ORIENTED_EDGE ( 'NONE', *, *, #10, .T. ) ;
#191 = EDGE_LOOP ( 'NONE', ( #147, #62, #44, #142, #107 ) ) ;
#192 = CARTESIAN_POINT ( 'NONE',  ( 0.000000000000000000, 0.000000000000000000, 0.000000000000000000 ) ) ;
#193 = CIRCLE ( 'NONE', #2, 24000.00000000000000 ) ;
#194 = ORIENTED_EDGE ( 'NONE', *, *, #176, .T. ) ;
#195 = EDGE_LOOP ( 'NONE', ( #256, #181, #4, #237 ) ) ;
#196 = DIRECTION ( 'NONE',  ( -0.000000000000000000, -0.000000000000000000, -1.000000000000000000 ) ) ;
#197 = LOCAL_TIME ( 10, 32, 6.000000000000000000, #204 ) ;
#198 = DIRECTION ( 'NONE',  ( 0.000000000000000000, 0.000000000000000000, 1.000000000000000000 ) ) ;
#199 = DIRECTION ( 'NONE',  ( -1.000000000000000000, 0.000000000000000000, 0.000000000000000000 ) ) ;
#200 = CARTESIAN_POINT ( 'NONE',  ( 16970.56274847718305, -16970.56274847709938, 8750.000000000000000 ) ) ;
#201 = DIRECTION ( 'NONE',  ( 0.000000000000000000, 0.000000000000000000, 1.000000000000000000 ) ) ;
#202 = APPROVAL ( #161, 'UNSPECIFIED' ) ;
#203 = CALENDAR_DATE ( 2025, 17, 2 ) ;
#204 = COORDINATED_UNIVERSAL_TIME_OFFSET ( 1, 0, .AHEAD. ) ;
#205 = AXIS2_PLACEMENT_3D ( 'NONE', #177, #57, #72 ) ;
#206 = DIRECTION ( 'NONE',  ( 0.000000000000000000, 0.000000000000000000, 1.000000000000000000 ) ) ;
#207 = EDGE_LOOP ( 'NONE', ( #30, #3, #68, #120 ) ) ;
#208 = DATE_TIME_ROLE ( 'classification_date' ) ;
#209 = VERTEX_POINT ( 'NONE', #200 ) ;
#210 = VERTEX_POINT ( 'NONE', #11 ) ;
#211 = CC_DESIGN_DATE_AND_TIME_ASSIGNMENT ( #121, #208, ( #229 ) ) ;
#212 = CYLINDRICAL_SURFACE ( 'NONE', #112, 24000.00000000000000 ) ;
#213 = ORIENTED_EDGE ( 'NONE', *, *, #257, .T. ) ;
#214 = ORIENTED_EDGE ( 'NONE', *, *, #266, .T. ) ;
#215 = PRODUCT ( 'Gleitlager_D48mm_w17mm_top', 'Gleitlager_D48mm_w17mm_top', '', ( #101 ) ) ;
#216 = FACE_OUTER_BOUND ( 'NONE', #195, .T. ) ;
#217 = CARTESIAN_POINT ( 'NONE',  ( 0.000000000000000000, 0.000000000000000000, 0.000000000000000000 ) ) ;
#218 = UNCERTAINTY_MEASURE_WITH_UNIT (LENGTH_MEASURE( 1.000000000000000082E-05 ), #80, 'distance_accuracy_value', 'NONE');
#219 = CYLINDRICAL_SURFACE ( 'NONE', #55, 24000.00000000000000 ) ;
#220 = CARTESIAN_POINT ( 'NONE',  ( 0.000000000000000000, 0.000000000000000000, 0.000000000000000000 ) ) ;
#221 = PLANE ( 'NONE',  #17 ) ;
#222 = AXIS2_PLACEMENT_3D ( 'NONE', #48, #124, #83 ) ;
#223 = APPROVAL_PERSON_ORGANIZATION ( #224, #202, #180 ) ;
#224 = PERSON_AND_ORGANIZATION ( #47, #56 ) ;
#225 = MANIFOLD_SOLID_BREP ( 'Lubrication Gap Area', #244 ) ;
#226 = EDGE_CURVE ( 'NONE', #19, #103, #265, .T. ) ;
#227 = PERSON_AND_ORGANIZATION_ROLE ( 'design_owner' ) ;
#228 = AXIS2_PLACEMENT_3D ( 'NONE', #39, #206, #187 ) ;
#229 = SECURITY_CLASSIFICATION ( '', '', #79 ) ;
#230 = COORDINATED_UNIVERSAL_TIME_OFFSET ( 1, 0, .AHEAD. ) ;
#231 = LINE ( 'NONE', #45, #151 ) ;
#232 = CC_DESIGN_APPROVAL ( #104, ( #189 ) ) ;
#233 = EDGE_CURVE ( 'NONE', #164, #106, #5, .T. ) ;
#234 = DIRECTION ( 'NONE',  ( -0.000000000000000000, -0.000000000000000000, 1.000000000000000000 ) ) ;
#235 = ADVANCED_FACE ( 'NONE', ( #261 ), #264, .F. ) ;
#236 = DIRECTION ( 'NONE',  ( -0.7071067811865486830, -0.7071067811865464625, 0.000000000000000000 ) ) ;
#237 = ORIENTED_EDGE ( 'NONE', *, *, #139, .T. ) ;
#238 = FACE_OUTER_BOUND ( 'NONE', #207, .T. ) ;
#239 = SHAPE_DEFINITION_REPRESENTATION ( #108, #89 ) ;
#240 = CARTESIAN_POINT ( 'NONE',  ( -24000.00000000000000, 0.000000000000000000, 0.000000000000000000 ) ) ;
#241 = DIRECTION ( 'NONE',  ( 0.7071067811865491270, -0.7071067811865459074, 0.000000000000000000 ) ) ;
#242 = ADVANCED_FACE ( 'NONE', ( #153 ), #221, .T. ) ;
#243 = ADVANCED_FACE ( 'NONE', ( #238 ), #219, .T. ) ;
#244 = CLOSED_SHELL ( 'NONE', ( #276, #84, #243, #242, #166, #235, #146 ) ) ;
#245 = DIRECTION ( 'NONE',  ( 1.000000000000000000, 0.000000000000000000, 0.000000000000000000 ) ) ;
#246 = CARTESIAN_POINT ( 'NONE',  ( 0.000000000000000000, 0.000000000000000000, 8750.000000000000000 ) ) ;
#247 = APPROVAL_DATE_TIME ( #99, #160 ) ;
#248 = APPROVAL_PERSON_ORGANIZATION ( #270, #104, #140 ) ;
#249 = PERSON_AND_ORGANIZATION ( #47, #56 ) ;
#250 = APPROVAL_DATE_TIME ( #38, #202 ) ;
#251 = PERSON_AND_ORGANIZATION ( #47, #56 ) ;
#252 = AXIS2_PLACEMENT_3D ( 'NONE', #33, #113, #199 ) ;
#253 = VERTEX_POINT ( 'NONE', #36 ) ;
#254 = DIRECTION ( 'NONE',  ( 1.000000000000000000, 0.000000000000000000, 0.000000000000000000 ) ) ;
#255 = AXIS2_PLACEMENT_3D ( 'NONE', #167, #126, #165 ) ;
#256 = ORIENTED_EDGE ( 'NONE', *, *, #176, .F. ) ;
#257 = EDGE_CURVE ( 'NONE', #209, #258, #193, .T. ) ;
#258 = VERTEX_POINT ( 'NONE', #97 ) ;
#259 = LINE ( 'NONE', #65, #70 ) ;
#260 = CC_DESIGN_APPROVAL ( #160, ( #229 ) ) ;
#261 = FACE_OUTER_BOUND ( 'NONE', #274, .T. ) ;
#262 = DIRECTION ( 'NONE',  ( 1.000000000000000000, 0.000000000000000000, 0.000000000000000000 ) ) ;
#263 = PRODUCT_DEFINITION ( 'UNKNOWN', '', #189, #134 ) ;
#264 = PLANE ( 'NONE',  #205 ) ;
#265 = LINE ( 'NONE', #110, #98 ) ;
#266 = EDGE_CURVE ( 'NONE', #164, #42, #156, .T. ) ;
#267 = DIRECTION ( 'NONE',  ( -0.7071067811865459074, -0.7071067811865491270, 0.000000000000000000 ) ) ;
#268 = PERSON_AND_ORGANIZATION ( #47, #56 ) ;
#269 = ORIENTED_EDGE ( 'NONE', *, *, #233, .F. ) ;
#270 = PERSON_AND_ORGANIZATION ( #47, #56 ) ;
#271 = VECTOR ( 'NONE', #111, 1000.000000000000000 ) ;
#272 = COORDINATED_UNIVERSAL_TIME_OFFSET ( 1, 0, .AHEAD. ) ;
#273 = CALENDAR_DATE ( 2025, 17, 2 ) ;
#274 = EDGE_LOOP ( 'NONE', ( #190, #26, #275, #169 ) ) ;
#275 = ORIENTED_EDGE ( 'NONE', *, *, #226, .F. ) ;
#276 = ADVANCED_FACE ( 'NONE', ( #73 ), #154, .T. ) ;
ENDSEC;
END-ISO-10303-21;
